You cannot copy content of this page

Filhaal Chords with Strumming Pattern | Guitar | B Praak | Easy

Filhall Guitar Chords

Capo Position: 3rd Fret
Chords Used: Am, G, F, Em
Strumming Pattern: D UUD UUD or D DU UDU

Intro Tabs without Capo:

E |----------------------------------------------------------------------------------
B |---------------------------4p3----------------------------------------------------
G |-----5-8-7--5--3-5--3-5--3------5p3-5s7--------5-8-7--5--3-5--3-5--3-1-3-1--------
D |-8-8-------------------------------------8-8--------------------------------3-3s5-
A |----------------------------------------------------------------------------------
E |----------------------------------------------------------------------------------

Intro Tabs with Capo on 3rd Fret

G |-0-2-4-------2-0-2-0-2-0-2-5-6-2-4
B |--------1-0----------------------

D |-------------------------------5-2
G |-0-2-4-------2-0-2-0-2-0-2-4-2----
B |--------1-0-----------------------

OR

D |-2-2--5
G |---------5-4-2--0-2--0-2--0-5-4-2-0--2/4

D |-2-2--5-------------------2-2----2-0--0/2
G |---------5-4-2--0-2--0-2-------0-------

O kuch (Am)aisa kar kamaal
Ke tera (G)ho jaaun
O kuch (Am)aisa kar kamaal
Ke tera (G)ho jaaun

Main (F)kisi aur ka hoon (G)filhall
Main (F)kisi aur ka hoon (G)filhall
Ke tera (Am)ho jaaun…
Main (F)kisi aur ka hoon (G)filhall
Ke tera (Am)ho jaaun…

Eh (Am)gall te (G)galat ae
Jo vi (F)kar reya (G)Jaani
Par (Am)eh vi dekh (G)tere bin
Kinjh (F)mar reya (G)jaani

O (Am)mar jange lai (F)sambhaal
O (Am)mar jange lai (F)sambhaal
Ke tera (F)ho jaaun…
Mai (Am)kisi aur ka hu (G)filhaal
Ke tera (F)ho jaaun…

Music: Am, G, F, G

SEE ALSO: Ik Mulaqaat Chords

SEE ALSO: Tere Sang Chords

SEE ALSO: Valam Chords

SEE ALSO: Ishq Maine Paaya Chords

Video

Song Credits

Singer/Artist: B praak
Music Composition: B praak & Jaani
Lyrics by Jaani
Second Lead: Ashmita
Music Label: Desi Melodies
Language: Hindi/Punjabi
Releasing Year: 2019

Leave a Reply

Your email address will not be published. Required fields are marked *

Back to Top