Guitar: Duniyaa Chords | Luka Chuppi

Guitar Chords in Detail

No. of Chords: 5
Chords Used: C, D, Em, Am, Bm
Rhythm Pattern: D D UDUD DUDU or D D UUD DDU
Capo: Required
Capo Position
: 3rd Fret

Intro Tabs:

​e|--------1------1------1--------------------|
B|-------------------------------3--2--------|
G|------0------0------0-------5--------------|
D|----1--------------------------------------|
A|-------------------------3-----------------|
E|-----------1------3------------------------|

e|--------1------1------1---------5----------| 
B|----------------------------------6--------| 
G|------0------0------0---------7-----7------| 
D|----1-----------------------7--------------| 
A|--------------------------5----------------| 
E|-----------1------3------------------------|

Intro Music: [C] [D] [Em] [D]

Bulaave tujhe[C]yr aj meri[D]galliyan
Basau tere[Em]sung me alag[D]duniyaa
Bulaave tujhe[C]yr aj meri [D]galliyaan
Basau tere[C]sang me alag[D]duniya

Na aye kbhi[C]dono me jara bhi[D]faasley
Bs ek tu ho[Em]ek me hu or koi[Bm]na
Hai mera sb[C]kuch tera tu samjh[D]ley
Tu chaahe mere[Em]haq ki zameen rakh[D]ley
Tu sanso pe bhi[Am] nam tera likh[D]dey
Me jiyu jb [Em]jb tera dil[Bm]dhadkey

Music: [C][D][Em][D][C][D][Em][Bm]

Jiss se[C]mera ye ji nhi[Am]bhrta
Kuch bhi[C] nhi asr abb[Am]krta
Meri[Em] raah tujh se, meri chah tjhse
Mujhe[Em]bs yhi reh jaana

Hai tu he dil[C]jaan hai meri ab[D]se
Naa zikr[Em]tera na jaye mere lub[D]se
Bulaave tujhe[C]yaar aj meri[D]galiyaan
Basaau tere[Em]sang me alag[Bm]duniyaa

Jo hovey tu[C]udaass mjhe dekhe has[D]ke
Tu chahe mere[Em]hak ki jameen[D]rkhle
Tu sanson pe bhi[Am]naam tera likh[D]dey
Me jiyu jb[Em]jab tera dil[Bm] dhadkey

[C]Pyaar di[D]raawan uttey
[Em]Yaar tu le[D]aya
[C]Mennu jeene[D] daa mtlb
[Em]Aj smjh[Bm]aya…[C]

[D]paraaya main[Em]u kr na [D]naa tu[Am]
sohineya[D] jana[Em] me ta rull[C]jaanaa

SEE ALSO: Teri Galliyan Chords | Ek Villain

SEE ALSO: Yaara Teri Yaari Chords | Darshan Raval

SEE ALSO: Chitthi Chords | Jubin

SEE ALSO: Tujhe Kaise Pata Na Chala Chords | Asees Kaur

Song Credits

Song Name: Duniyaa
Lyricist: Kunaal Vermaa
Music Composed by Abhijit Vaghani
Singer/Artist: Akhil & Dhvani Bhanushali
Releasing Year: 2019
Country: India
Language: Hindi (Bollywood)
Original Credits
Song Name: Khaab
Singer/Artist: Akhil
Music Composition: Bob
Lyricist: Raja

One Response

Leave a Reply

Your email address will not be published. Required fields are marked *

Back to Top