Armaan Malik – Zikr Chords | Guitar (Amavas)

Zikr Guitar Chords by Armaan Malik

Guitar Chords in Detail

Song Scale/Key: Gm
Time Signature: 4/4
No. of Chords: 3
Chords Used: Gm, F, D#, Bb/A# (Used only at one place)
Rhythm Pattern: D DD D/DDU U UD DU

Intro Music (Tabs)
E |--------------------------------------------| 
B |--------------------------------------------| 
G |----------5-------------------5-------------| 
D |----7--8-----7--5-7-5----7--8----7--5-7-5---| 
A |----------------------8-------------------8-| 
E |--------------------------------------------|

E |--------------------------------------------| 
B |--------------------------------------------| 
G |--------------------------------------------| 
D |-----5/7--7--5-----5------5-----------------| 
A |--8-------------8----8--8---8-6-8-6-5-------| 
E |--------------------------------------------|

(Gm)Hone lga iss(F)tarah
(D#)Meri (Gm)galti hai
(F)Dilko roka to(D#)yeh
(F)jubaan (Gm)chalti hai

(Gm)Ishq ko maine(D#)bda samj(F)haaya
(F)Ishq ke age kah(Gm)aan chlti hai

(Gm)Tera (F)na karta zikr
(Gm)Teri (F)na hoti fikar
(F)Tere liye dil (D#)rota naa(Gm)kbhi
(Gm)Yu na behata (F)ashq
(Gm)Me bhi manaata (F)jashan
(F)Khudke liye bhi (D#)jeeta (Gm)zindagi

Ba(Gm)khudaa dil (F)gya ba(Gm)khudaa dil (F)gya
Ba(Gm)khudaa dil (F)gya ba(Gm)khudaa dil (F)gya

(Gm)Tera (F)na karta zikr
(Gm)Teri (F)na hoti fikar
(F)Tere liye dil (D#)rota naa(Gm)kbhi
(Gm)Yu na behata (F)ashq
(Gm)Me bhi manaata (F)jashan
(F)Khudke liye bhi (D#)jeeta (Gm)zindagi

(Gm)Jisam se (A#)tere milne (F)de mjhe
(Gm)Baechain zind(F)agi (D#)is pyar (Gm)me thi
(Gm)Unglliyon se tujhpe likhne (F)de zara
(Gm)Shayarii meri intezar (Gm)me thi

(D#)Mujh pe lutaade ishq
(D#)Mujh ko sikhaade ishq
(F)Kissmat mere darr a gya jo(Gm)tu

(Gm)Mujh ko (F)jag aaye rkh
(Gm)Khudme (F)lagaaye rkh
(F)Ke raat bhar me ab na (D#)so (Gm)saku

(Gm)Tera (F)na karta zikr
(Gm)Teri (F)na hoti fikr
(F)Tere liye dil (D#)rotana (Gm)kbhi
(Gm)Yu na bahaata (F)ashq
(Gm)Me bhi manaata (F)jashan
(F)Khud ke lie bhi (D#)jeeta (Gm)zindagi

Outro Music (Tabs)
E |--------------------------------------------| 
B |--------------------------------------------| 
G |----------5-------------------5-------------| 
D |----7--8-----7--5-7-5----7--8----7--5-7-5---| 
A |----------------------8-------------------8-| 
E |--------------------------------------------|

E |--------------------------------------------| 
B |--------------------------------------------| 
G |--------------------------------------------| 
D |-----5/7--7--5-----5------5-----------------| 
A |--8-------------8----8--8---8-6-8-6-5-------| 
E |--------------------------------------------|

SEE ALSO: Piya Re Chords | Strings

SEE ALSO: Daryaa Chords | Manmarziyan

SEE ALSO: Aa Bhi Ja Chords | Jass Gujral

SEE ALSO: Ye Pyaar Nahi To Kya Chords | Yasser Desai

Full Audio-Video

Song Credits

Song Name: Zikr
Singer/Artist
: Armaan Malik
Music Composition: Asad Khan
Movie/Album: Amavas
Lyrics by Junaid Wasi
Acoustic Guitars: Keba Jeremiah
Rhythm Programmed by Bobby Srivastava
Language: Hindi (Bollywood)
Releasing Year: 2019
Country: India

3 Responses

Leave a Reply

Your email address will not be published. Required fields are marked *

Back to Top