You cannot copy content of this page

SIMMBA: Aankh Marey Guitar Tabs—Single String

Guitar Tabs in Detail—Single String

B | --3-----
G | --3--5----
B | --3----
G | --3--5----
B | --3------
G | --3--5--5--3--5---

G | --2----
D | --3--5----
G | --2----
D | --3--5----
G | --2----
D | --3--5--5--3--5---

D | --5--5--8--5--3--3---
Dil dhadakaaye...

D | --5--5--8--5--3--3---
Seeti bajaaye...

D | --5--8--8--10--10--12--12--10--10--10--10--10--10--8----
A | --8--8--
Beech sadak pe nakhrey dikhaaye saare...

D | --10--10--10--8----
A | --8--8--
Ho krke ishaare

A | --8--
D | --(open)--3--5--7--8--7--5--5--10--7----
A | --8--8--
Oo.. ladki aankh marey aankh maarey

A | --8--8---
D | --5--7--5--3--5--5--5--
Ho... ladki aankh maare

B | --8--8--10--6--8---
E/ 1st | --8--8--8--6--6--5--3--3--
Jaha-jaha jau mere piche-piche aye

B | --8--8--10--6--8----
E/ 1st | --8--8--8--6--6--5--3--3--
Gali-gali ke aashiq dono mera hona chaahe

B | --8--8--10--6--8---
E/ 1st | --8--8--8--6--6--5--3--3--
Jahan-jahan jaye tere piche-p-che aaaye

B | --8--8--10--6--8---
E/ 1st | --8--8--8--6--6--5--3--3--
Hum to hai diwaane tere... tera hona chaahey

D | --5--5--8--5--3--3--
Seeti bajaaye

D | --5--5--8--5--3--3--
Nakhre dikhaaye

D | --5--8--8--10--10--12--12--10--10--10--10--10--10--8----
A | --8--8--
Beech sadak me haaye naam mera pukaare

D | --10--10--10--8--
A | --8--8--
Oh.. krke ishaare

A | --8--
D | --(open)--3--5--7--8--7--5--5--10--7---
A | --8--8--
Oh.. ladki aankh marey aankh marey...

A | --8--8---
D | --5--7--5--3--5--5--5--
Ho ladki aankh marey...

SEE ALSO: Tere Jaisa Yaar Kahan Guitar Tabs | Single String

SEE ALSO: Tujhse Naraz Nahi Zindagi Tabs | Single String

SEE ALSO: Ghar Se Nikalte Hi Tabs | Single String

SEE ALSO: Lae Dooba Tabs | Single String

Original Song Video

Song Credits

Song Name: Aankh Marey
Singers/Artists: Neha Kakkar, Mika Singh And Kumar Sanu.
Music Composition: Tanishk Bagchi
Re-Created by Tanishk Bagchi
Lyricist: Shabbir Ahmed
Percussions: Krishna Kishor
Movie: Simmba
Releasing Year
: 2018
Country: India
Language: Hindi (Bollywood)

Original Credits
Song Name: Aankh Maare O Ladka Aankh Maare
Movie Name: Tere Mere Sapne
Singers/Artists: Kumar Sanu, Kavita Krishnamurthy
Lyricist: Anand Bakshi
Music Label: T-Series

Back to Top