You cannot copy content of this page

Shayad Guitar Tabs | Love Aaj Kal

Contents (Post Overview)

Shayad Tabs from Love Aaj Kal

e|----------------------------------| 
B|----------------------------------| 
G|--4--7/9--7-7--5-4-5-4--------7-7-| 
D|-----------------------7-5--7-----| 
A|----------------------------------| 
E|----------------------------------|
e|----------------------------------| 
B|----------------------------------| 
G|----------------------------------| 
D|--9-7--9-7--9-7--9-7-5-4--5-5-----| 
A|----------------------------------| 
E|----------------------------------|
e|----------------------------------| 
B|----------------------------------| 
G|--4--7/9--7-7--5-4-5-4--------7-7-| 
D|-----------------------7-5--7-----| 
A|----------------------------------| 
E|----------------------------------|
e|----------------------------------| 
B|----------------------------------| 
G|----------------------------------| 
D|--9-7--9-7--9-7--9-7-5-4--5-5-----| 
A|----------------------------------| 
E|----------------------------------|
e|----------------------------------| 
B|----------------------------------| 
G|--4-4/7-7-7\4--4-4-4--4/5-4-2-0-2-| 
D|----------------------------------| 
A|----------------------------------| 
E|----------------------------------|
e|----------------------------------| 
B|----------------------------------| 
G|-4-4/7-7-7\9-4--4-4-4-4/5-4-2-0-2-| 
D|----------------------------------| 
A|----------------------------------| 
E|----------------------------------|
e|----------------------------------| 
B|----------------------------------| 
G|---------------------7-7-7--------| 
D|--7-5-7-5-------------------------| 
A|----------7p5-5----5--------------| 
E|----------------------------------|
e|----------------------------------| 
B|----------------------------------| 
G|--5-5--5/7--5-4---5p4--2----------| 
D|----------------------------------| 
A|----------------------------------| 
E|----------------------------------|
e|----------------------------------| 
B|----------------------------------| 
G|--4-4/7-7-7\4--4-4-4--4/5-4-2-0-2-| 
D|----------------------------------| 
A|----------------------------------| 
E|----------------------------------|
e|----------------------------------| 
B|-8-7-8----------------------------| 
G|--------7\9-4--4-4-4-4/5-4-2-0-2--| 
D|----------------------------------| 
A|----------------------------------| 
E|----------------------------------|
e|----------------------------------| 
B|----------------------------------| 
G|---------------------7-7-7--------| 
D|--7-5-7-5-------------------------| 
A|----------7p5-5----5--------------| 
E|----------------------------------|
e|----------------------------------| 
B|----------------------------------| 
G|--5-5--5/7--5-4---5p4--2----------| 
D|----------------------------------| 
A|----------------------------------| 
E|----------------------------------|

Flute Piece - Solo
e|----------------------------------| 
B|----------------------------------| 
G|-4-7-9p7--4-7-9p7--4-7-9p7--4-0-2-| 
D|----------------------------------| 
A|----------------------------------| 
E|----------------------------------|
e|----------------------------------| 
B|----------------------------------| 
G|-4-7-9p7--4-7--4\2-0-2--0-2-0-7-5-| 
D|----------------------------------| 
A|----------------------------------| 
E|----------------------------------|
e|----------------------------------| 
B|----------------------------------| 
G|-4-7-9p7--4-7-9p7--4-7-9p7--4-0-2-| 
D|----------------------------------| 
A|----------------------------------| 
E|----------------------------------|

e|----------------------------------| 
B|-------------------3--------------| 
G|---4-7-9p7--4-0-2-----------------| 
D|----------------------------------| 
A|----------------------------------| 
E|----------------------------------|  

Video

Song Credits

Song Title: Shayad
Music Composition: Pritam
Movie/Film: Love Aaj Kal
Singer/Artist: Arijit Singh
Lyrics by Irshad Kamil
Releasing Year: January 2020
Music Label: Sony Music
Language: Hindi (Bollywood)

Back to Top