You cannot copy content of this page

Guitar: Pani Da Rang Chords & Tabs [with Strumming] – Ayushman Khurana

Pani Da Rang Guitar Chords & Guitar Tabs | Ayushman Khurana’s another talent for revealed as the song “Pani da rang” came into being. Besides being an amazing actor,he proved himself to be a diligent composer and singer. The song is penned in a typical Punjabi language which makes it even more appealing.

The song comes in three main verses with a single chorus portion which goes like “Paani da rang vekh ke, ankhiyaan’ch hanju rulde”. The song starts off with a beautiful strumming of the guitar. Guitar chords had always been pleasing and soothing to the ears. It has always ingrained romanticism in the listeners. The composition of the song has a proper fluidity and auditory resplendence. It has the use of basic instruments like the bass and acoustic guitars and has a meticulous use of drums to make it catchy. The song has successfully highlighted Khurana’s voice unlike other mainstream Bollywood songs of the same genre.

The lyrics of the song basically points out the pain of missing someone’s beloved and waiting for their return patiently. Coming to terms with the people who call the lyrics of the song to be “Cliched” shouldn’t be a thing for sensible people. I would care about explaining that. Somewhere deep inside our hearts, irrespective of our proximity with our lovers, we keep on waiting for them to appear in front of our eyes. Their physical existence matters hugely. The lyricist beautifully engaged nature with the lyrics, are can get evidence from the very first line of the song where the lover’s eyes get filled with tears seeing the colour of the water. Later on, we see there are more such comparisons. Such comparisons are enriching the song overall.

The song is also a mere praisal of someone’s lover’s beauty and how the hiatus between two lovers is heart-wrenching. Khurrana made sure that this song is hummed by millions juts our of mere pleasure. Being very honest, if one doesn’t understand the lyrics of the song, he or she still would like the song due to the melodious composition. Due to the usage of fewer effects during post-production, the song came out to be absolutely fresh from the box. The song could adhere to the mystic feeling which one wants to have after listening to a “Good song”.

The song has every element which must be taken into account while terming it as a hit number like good music composition, sensible lyrics, and captivating vocals.

Suggested Strumming Pattern

Pattern: D UUD UUD / D D UUD UUD / D UUD UUD DU
Recommended Pattern: D UUD UUD
D – Down
U – UP

Guitar Chords in Detail

Song Scale/Key: Em
Capo: Not Required
No. of Chords: 3
Chords Used: Em, D, C
Beats per minute (BPM): 98

Intro Music: Em, Em, D, D [Two Times]

Pani[Em] da rang[D] vekh ke [Three Times]

[C]Akhiyaan jo[D] hanjju rud[Em]de [Play Single Strum on C & D and Strum on Em]
[C]Akhiyaan jo[D] hanjju rud[Em]de [Play Single Strum on C & D and Strum on Em]

[Em]Mahiyaa na aya mera
[D]Maahiya naa aya
[Em]Mahiyaa na aya mera
[D]Maahiya naa aya

[C]Ranjhana na aya mera
[D]Mahiyaa na aayaa…
[C]Mahiyaa naa aya mera
[Em]Ranjhnaa na aya…

Ankhaan[Em] daa noor[D] vekhke
Ankkhan[Em] daa noor[D] vekh ke
[C]Ankhiyaan jo[D] hanjhu rudd[Em] de
[C]Ankhiyaan jo[D] hanjju rudd[Em] de
[C]Ankhiyaan jo[D] hanjhu rudd[Em] de

Music:

E|–3-2—3-2——-
B|——3—–3—–

[Em]Kamli ho gyi tere bina [Play Single Strum on Em]
[D]Aja ranjan mere…
[Em]Kamlli ho gyi tere bina
[D]Ajaa ranjann mere…
[C]Baarish-barkhaa sb kch bh gyi
[D]Aya ni zind[Em] mere…
[C]Baarish barkhaa sb kch bh gyi
[D]Aaya ni zind[Em] mere…

Ankkhaan[Em] da noor[D] vekh ke…
Ankhaaan[Em] da noor[D] vekh ke….
[C]Ankkhiyaan ch[D] hanjhu rudd[Em] de
[C]Ankkhiyaan ch[D] hanjju rudd[Em] de
[C]Ankkhiyaan ch[D] hanjhu rudd[Em] de

[Em]kothey-uttey be ke
[D]Ankhhiyaan milaundey
[C]Na ja naa[D] hume tu kawi[Em] chodd..
[Em]Tere uttey marda
[D]Pyr tenu krda
[C]Millega [D] tujhe na koi[Em] or

Tu vi[Em] aa sbko chodd[D]ke
Tu vi[Em] aa sbko chodd[D]ke

Meri…

[C]Ankkhiyaa ch[D] hanju rudd[Em] dey
[C]Ankhhiyaa ch[D] hanju rudd[Em] dey

Pani[Em] da rang[D] vekh ke [Three Times]

[C]Ankhiyaan cho[D] hanju rudd[Em] dey
[C]Ankhiyaan cho[D] hanju rudd[Em] de…
[C]Ankhiyaan cho[D] hanju rudd[Em] de…
[C]Ankhiyaan cho[D] hanju rudd[Em] dey

SEE ALSO: Chan Kittan Chords | Ayushmann

SEE ALSO: Yaad Teri Chords | Rahul Vaidya

SEE ALSO: Gulabi Aankhein Chords | RD Burman

SEE ALSO: Ye Pyaar Nahi To Kya Chords | Yasser Desai

Guitar Tabs (Full)

Pani Da...
E| --------------7--7--10-7------------
B| ------8--10---------------8--10-10--
G| ------------------------------------
D| ------------------------------------
A| ------------------------------------
E| ------------------------------------

E| --------------7--7--10-7-----------
B| ------8--10---------------8--10-10-
G| -----------------------------------
D| -----------------------------------
A| -----------------------------------
E| -----------------------------------

Meri
E| ---------------
B| ------8--7--8--
G| ---------------
D| ---------------
A| ---------------
E| ---------------

Ankhiyaan Jo...
E| ---------------------------------------------
B| ----8--8--8--8--10-8--10-8--7----------------
G| ---------------------------------------9--9--
D| ---------------------------------------------
A| ---------------------------------------------
E| ---------------------------------------------

E| --------------------
B| --------------------
G| ----7---------------
D| --------------------
A| --------------------
E| --------------------

Ankhiyaan jo...
E| -----------------------------------------------
B| -------8--8--8--8--10-8--10-8--7---------------
G| ----9------------------------------------9--9--
D| -----------------------------------------------
A| -----------------------------------------------
E| -----------------------------------------------

Maahiyaa na...
E| ----12-12-12-12-10-12p10-7--7--10-9--7-----------7--7-----
B| -----------------------------------------------------10---
G| ----------------------------------------------------------
D| ----------------------------------------------------------
A| ----------------------------------------------------------
E| ----------------------------------------------------------

E| ----12-12-12-12-10-12p10-7--7--10-9--7-----------7--7---------
B| -----------------------------------------------------10-------
G| --------------------------------------------------------------
D| --------------------------------------------------------------
A| --------------------------------------------------------------
E| --------------------------------------------------------------

Ranjhana Na...
E| ----7--7--------------------------7--7---------------
B| ----------10-8--10-10-8------------------10-8--10-10-
G| -------------------------------9---------------------
D| -----------------------------------------------------
A| -----------------------------------------------------
E| -----------------------------------------------------

E| ----7--7--------------------------------------
B| ----------10-8--10-10-8-----------------------
G| -------------------------------9--------------
D| ----------------------------------------------
A| ----------------------------------------------
E| ----------------------------------------------

E| -------------------------
B| ----8--7-----------------
G| ----------9--7--9--9-----
D| -------------------------
A| -------------------------
E| -------------------------

Kamli ho gayi...
E| ----15-15-14-12-10-12-12-12-12-7--10-9--7-------7--7-----
B| ------------------------------------------------------10-
G| ---------------------------------------------------------
D| ---------------------------------------------------------
A| ---------------------------------------------------------
E| ---------------------------------------------------------

E| ----15-15-14-12-10-12-12-12-12-7--10-9--7-------7--7-----
B| ------------------------------------------------------10-
G| ---------------------------------------------------------
D| ---------------------------------------------------------
A| ---------------------------------------------------------
E| ---------------------------------------------------------

Baarishh Barkhaa...
E| --------------------------------7--------------------------------------
B| ----10-10-10-10-10-8--10----10-8--7-----8--7---------------------------
G| ----------------------------------------------9--------9--7--7--9--9---
D| -----------------------------------------------------------------------
A| -----------------------------------------------------------------------
E| -----------------------------------------------------------------------

E| --------------------------------7--------------------------------------
B| ----10-10-10-10-10-8--10----10-8--7-----8--7---------------------------
G| ----------------------------------------------9--------9--7--7--9--9---
D| -----------------------------------------------------------------------
A| -----------------------------------------------------------------------
E| -----------------------------------------------------------------------

Kothey othey...
E| ------------------------------------------------------------------------------------------
B| ----8--8--7--7--8--8--7-----7--7--7-----7--7----------------------------------------------
G| -----------------------------9-----------9--------9--7--9--9--9--9--7----------7--7--9--9--
D| ------------------------------------------------------------------------------9------------
A| -------------------------------------------------------------------------------------------
E| -------------------------------------------------------------------------------------------

Original Song Video

Song Credits

Song Title: Pani Da Rang (पानी दा रंग)
Movie/Album: Vicky Donor
Artist/Singer: Ayushmann Khurrana
Composed by Ayushmann Khurrana & Rochak Kohli
Releasing Year: 2012
Language: Punjabi (Bollywood)
Country: India
Music Label: Eros Now

Back to Top