You cannot copy content of this page

Easy: Tu Yaad Aya Chords with Strumming Pattern & Tutorial

Tu Yaad Aya Guitar Chords by Adnan Sami

Song Scale: Am
Chords Used: Am, Em, F, G, Dm
Strumming Pattern: D U D U D or D UUD UUD or D(c)U U(c)D or D U(c) D DD

Intro Tabs:

G| -0-2---------------2----------2
B| ---------0h1---0-----0h1------

G| -0-2---------------2----------2
B| ---------0h1---0-----0h1------

G| -0---2---------------2------------
B| -----------0h1------------0---1/3

G| ------------------------5----------------
B|-------------------3-----------3/5--3---0-
E|--0--1---0h1------------------------------

[Am]Hui mohobbat [Em]ki baat phir
[F]Sata rahi hai [G]ye raat fir
[Am]Bheega rahi hai [Em]inn aankhon ko
[F]Bewakt ki [G]yeh barsaat phir

[Dm]Aagaya kyu [G]labon pe
[F]Yeh naam tera [G]bata

[Am]Tu yaad aaya [Em]tu yaad aaya
[F]Tu yaad aya [G]hai aj phir
[Am]Jo teri baaton [Em]ne dil dukhaya
[F]Tu yaad aya [G]hai aaj phir

SEE ALSO: Chhapaak Chords

SEE ALSO: Ek Tukda Dhoop Chords

SEE ALSO: Mere Liye Tum Kaafi Ho Chords

SEE ALSO: Mehrama Chords

Tutorial Video

Video

Song Credits

Song Title: Tu Yaad Aya Aaj Phir
Singer/Artist: Adnan Sami
Movie/Film: Baaghi 3
Music Composition: Kunaal Vermaa
Lyrics by Kunaal Vermaa (Songster)
Piano Solo: Adnan Sami
Music Label: T-Series
Releasing Year: 2020
Language: Hindi

2 Responses

Leave a Reply

Your email address will not be published. Required fields are marked *

Back to Top