You cannot copy content of this page

Easy: Fur Elise Guitar Tabs Single String by Ludwig Van Beethoven

Fur Elise is a symphony composed by the maestro Beethoven. Fur Elise is a beautiful musical piece that was written for the solo piano. But now you can play it on the guitar euphoniously. So here we present to you the Fur Elise guitar tabs. The guitar tabs are single string tabs and have two main variations. The single string guitar tabs of Fur Elise are G and D, and e and B. The melody has to be played with the signature 4/4 beat and a variation in tempo has to be maintained here from fast to slow.

This musical masterpiece is indeed one of the best compositions by the legendary Ludwig van Beethoven. This melody was composed in the year 1810 but was released posthumously 40 years after the death of Beethoven. The symphony is famously known as Bagatelle No. 25 in A minor. This melody sounds blissful not only on the piano but also on the guitar as well.

Fur Elise Guitar Tabs Single String (on e & B)

e|-12-11-12-11-12-7-10-8-5-0-3-5-7-------5-7-8--|
B|-----------------------------------6----------|

e|-12-11-12-11-12-7-10-8-5-0-3-5-7-------8-7-5--|
B|-----------------------------------6----------|

e|-5-7-8-10-5-13-12-10-5-12-10-8-10-8-6---------|

e|-12-11-12-11-12-7-10-8-5-0-3-5-7-------5-7-8--|
B|-----------------------------------6----------|

e|-12-11-12-11-12-7-10-8-5-0-3-5-7-------8--7--5-|
B|-----------------------------------6-----------|

You may also like:

Bella Ciao Guitar Tabs

Coffin Dance Guitar Tabs

Fur Elise Guitar Tabs Single String (on G & D)

G|-9-8-9-8-9-4-7-5-2---|

G|------2-4--------4-5-|
D|-2-2-------2-2-------|

G|-9-8-9-8-9-4-7-5-2---|

G|-------2-4-----5-4-2--|
D|--2-2------ 2---------|

G|-9-8-9-8-9-4-7-5-2---|

G|------2-4--------4-5-|
D|-2-2-------2-2-------|

G|-9-8-9-8-9-4-7-5-2---|

G|-------2-4-----5-4-2--|
D|--2-2------ 2---------|

G|-4-5-7-9–9–10-9-7-7---|

G|-9-7-5-5–7-5-4-4–9-9--|

G|-9—8-9-8-9-4-7-5-2----|

More About this Song: Fur Elise in English means For Elise. This soulful rendition was composed by Beethoven for his dear beloved as told by the researchers. Originally it was written in a five part rondo form following the A-B-A-C-A pattern. The piece when played on the piano has to be played in the A minor scale with a 3/8 timing and the Poco moto tempo. Though it is an intricate symphony for the pianists, the single string tabs on the guitar are easy and so the beginners and amateurs can play them very fluently and effortlessly. This mesmerising composition is extremely soothing and relaxing and is beyond all praise and commendation.

Back to Top